Encyclopaedia Metallum: The Metal Archives

Message board

* FAQ    * Search   * Register   * Login 



Reply to topic  
Author Message Previous topic | Next topic
ClaymanOnFire
Metalhead

Joined: Sat Mar 12, 2011 8:13 pm
Posts: 451
Location: Nice try, Big Brother
PostPosted: Fri Sep 23, 2011 2:18 pm 
 

I need tab for Little Drummer Boy by August Burns Red. It's a Metalcore band but this song is pretty awesome, best metal/rock adaptation of a Christmas song I've ever heard. I performed a few searches but I couldn't find anything...

Top
 Profile  
mattvdh
Mallcore Kid

Joined: Sun Oct 02, 2011 9:48 am
Posts: 12
Location: Canada
PostPosted: Sun Oct 02, 2011 9:56 am 
 

I use tabs for a general introduction to the riffs to get me started, but I find that most tabs on ultimate guitar or those tab sites are very inaccurate. And you have to root through dozens of them...

Does anybody know of a site that proofs their tabs before publishing them on the net? Man some of the metal tabs are so bad and done by noobs, like they'll mess up the whole song right from the start by giving you the wrong tuning, like I've seen dozens of black dahlia murder tabs where they tabbed it in standard C# tuning for example, when they've said in all kinds of interviews and if you just listen to the intro on unhallowed you can tell right away it's a drop tuning.

I'm always impressed when I see musicians tab out each instrument in guitar pro, man that's incredibly tedious! Personally I use fruity loops for the drums and then record my guitar tracks over it. I don't like the midi sounds in GP, but it's good for song writing. A lot of big bands, like BDM actually, use GP for song writing.

Top
 Profile  
RottingWays
Metalhead

Joined: Tue May 10, 2011 10:14 pm
Posts: 649
Location: United States
PostPosted: Sat Oct 08, 2011 1:09 pm 
 

Does anybody have the tab for the solos in Lost Souls by Pestilence?
_________________
I hope you drown in a sea of goat urine. - Goatfangs

Top
 Profile  
Louie CK
Metal newbie

Joined: Tue Oct 11, 2011 9:29 am
Posts: 59
Location: United States
PostPosted: Fri Oct 28, 2011 4:38 pm 
 

Someone pm me the link if you can find tabs for The Ancient Fires of Har-Kuun, or just the solo cuz that's all I really care to learn

Top
 Profile  
hellbellz666
Mallcore Kid

Joined: Wed Sep 29, 2004 4:15 am
Posts: 14
PostPosted: Fri Dec 02, 2011 7:48 am 
 

can any one help me tab any songs of this albums
morta skuld(us) dying remains
,baphomet(us) the dead shall inherit
protector(german) a shedding of skin
and brutality(us) screams of anguish

Top
 Profile  
hellbellz666
Mallcore Kid

Joined: Wed Sep 29, 2004 4:15 am
Posts: 14
PostPosted: Wed Dec 07, 2011 4:42 pm 
 

can any one help me tab any songs of this albums
morta skuld(us) dying remains
,baphomet(us) the dead shall inherit
protector(german) a shedding of skin
and brutality(us) screams of anguish

Top
 Profile  
El_Yayo
Mallcore Kid

Joined: Wed Jan 09, 2008 10:57 am
Posts: 4
PostPosted: Fri Dec 09, 2011 7:48 pm 
 

Hi, I'm playing guitar again and am trying to play a couple of songs from Obsession (80's heavy metal band from USA)
but the problem is i can't find any tab's, these are the only parties who know of these songs

For the love of money
----0-----0------3-------0
---3-3---3-3---3--3----3-
--2---2-2---2-2----2--2--
-0-------------------0----
-------1-----2------------
--------------------------

desperate to sourvive
-------
----0--
---6-6- X2
--6---6
-4-----
-------

anyone can teach me these songs or help with the tabs

bye!

Top
 Profile  
Commandaunt
Metalhead

Joined: Thu Mar 10, 2011 10:31 am
Posts: 478
Location: Canada
PostPosted: Wed Dec 21, 2011 3:04 pm 
 

Any1 know how to play Dirty Gore Whore by Autopsy?

Top
 Profile  
Blasphemr
Mallcore Kid

Joined: Sat Aug 20, 2011 7:31 am
Posts: 14
Location: Canada
PostPosted: Mon Jan 23, 2012 7:11 pm 
 

Does anyone know the tapping part of Leprosy that Chuck does at 2:45? I don't expect anyone to tab out the whole thing, even the first few notes will be helpful. Thanks.
_________________
Dethklok Narrator: "Antonio shot heroin into his balls again this morning. He says this time, it was an accident..."


Last edited by Blasphemr on Tue May 01, 2012 1:32 am, edited 1 time in total.
Top
 Profile  
Misfit74
Metalhead

Joined: Fri Aug 05, 2011 1:23 am
Posts: 1537
Location: United States
PostPosted: Tue Jan 24, 2012 1:22 am 
 

Looking for Tab for Abysmal Dawn - My Own Savior if someone has it or is so inclined to put it together. Any std tab or GP4-GP6 would be great. Mainly, I want the main riff combination and most importantly the second riff that has the chord changes and pinch-harmonic. That riff - the second main riff which begins at :30 into the song is badass. Song is track #9 from the Album 'Leveling The Plane Of Existence'.
_________________
Last.fm
My Music on RYM

Top
 Profile  
kgerych1995
Metal newbie

Joined: Sun Jul 03, 2011 7:07 pm
Posts: 280
Location: United States
PostPosted: Thu Jan 26, 2012 10:32 pm 
 

Any metal church tabs for End Of The Age or In Mourning?

Top
 Profile  
Mechanix11
Metal newbie

Joined: Tue Nov 01, 2011 12:33 pm
Posts: 130
PostPosted: Wed Mar 07, 2012 10:36 pm 
 

anyone has the tab of the song ''Last Act Of Defiance'' and ''Impact Is Imminent'' by Exodus?
if can be in guitar pro tab i would appreaciate that

Top
 Profile  
Misfit74
Metalhead

Joined: Fri Aug 05, 2011 1:23 am
Posts: 1537
Location: United States
PostPosted: Fri Mar 09, 2012 2:57 pm 
 

Mechanix11 wrote:
anyone has the tab of the song ''Last Act Of Defiance'' and ''Impact Is Imminent'' by Exodus?
if can be in guitar pro tab i would appreaciate that


Impact- http://tabs.ultimate-guitar.com/e/exodu ... nt_tab.htm
_________________
Last.fm
My Music on RYM

Top
 Profile  
captain_che
Metal newbie

Joined: Mon Jul 19, 2010 8:20 pm
Posts: 390
PostPosted: Sat Mar 10, 2012 8:36 pm 
 

Does anybody have tabs for Mortualia?

Top
 Profile  
IanThrash
Metalhead

Joined: Mon Dec 26, 2011 10:56 pm
Posts: 877
Location: Argentina
PostPosted: Wed Mar 21, 2012 3:57 pm 
 

does anyone have nocturnus tabs?
_________________
Can´t touch this

Dude: If you tour, will you bring out other musicians? Use tapes? Clone yourselves?

Fenriz: I am up for cloning, but with less tinnitus and more chest hair, please.

Lastfm

Top
 Profile  
IMPF
Metal newbie

Joined: Fri Feb 24, 2012 11:09 pm
Posts: 39
PostPosted: Sat Apr 14, 2012 12:04 pm 
 

Can someone help get me the tabs to Karhunkynsi by Moonsorrow?

Top
 Profile  
Mechanix11
Metal newbie

Joined: Tue Nov 01, 2011 12:33 pm
Posts: 130
PostPosted: Sun Apr 22, 2012 5:32 pm 
 

anyone knows a good tab for the song "Brain Death" by Nuclear Assault?

Top
 Profile  
Sva_Batalion
Metal newbie

Joined: Sat Feb 16, 2008 6:33 am
Posts: 91
Location: Germany
PostPosted: Tue Apr 24, 2012 7:10 pm 
 

Apraxia - Sons of Thule

http://www.youtube.com/watch?v=t5QbgAJTBtw

I'm not a very good guitar player, but I tried nevertheless.

All Chords are powerchords!

Intro:

e-------------------------------------------------------------------
H-------------------------------------------------------------------
G--------------------10-----------------------10-------------------
D--10-10-12^13-10----10---10-10-12^13-10----13-10--------------
A------------------13-----------------------13---------------------
E-------------------------------------------------------------------


e------------------------------------------------------------------------
H------------------------------------------------------------------------
G---------------12-10--------------------------------12-10--------------
D--10-10-12^13------12^13^12-13-12--10-10-12^13-------12^13^12-10
A--------------------------------------------------13--------------------
E-------------------------------------------------------------------------


Riff 1:

C C# C A# C# F D# C#

Riff 2:

all=*
e-------------------------------------------------------------------------
H-------------------------------------------------------------------------
G-------------------------------------------------------------------------
D-------------------------------------------------------------------------
A-------------------------------------------------------------------------
E--888-9-888-9-11-11-9-8-9999------------------------------------------

Riff 3:

C D# F D C

Riff 4:

C D D# D A# C

Lead guitar (Chorus)
...........................................................novaja era...
...........................................................synovy tule...
e-------------------------------------------------------------------------
H-----------------13-11--11---------------------------------------------
G-----------10-12------12--12-10-12-----------------------------------
D--10-12-13-------------------------13------12-10(10)-----------------------
A--------------------------------------13(13)--------------------------------
E-------------------------------------------------------------------------

Riff 5:

C D# D F D# G C D# // D# G C D# F D C

Leadguitar Riff 5:

e-----------------------------------------------------------------------------------
H-----------13----------15-----------------15-----13-------------------------------
G--12-15-14--14^15^14--12-15--14^15^14--12-15--14-12--------------------------
D-----------------------------------------------------------------------------------
A-----------------------------------------------------------------------------------
E-----------------------------------------------------------------------------------


Please tell me if I got it right, I know there's still a guitar lead missing somewhere. Any help would be much appreciated!

Top
 Profile  
DeathFog
Temporally-Displaced Fossil

Joined: Thu Jun 12, 2003 9:20 am
Posts: 2017
Location: Estonia
PostPosted: Wed Apr 25, 2012 2:03 pm 
 

DeathFog wrote:
Can anyone tab the solo of Mayhem's Freezing Moon, as played in this version : http://www.youtube.com/watch?v=7IJovmgDJPY . This version was recorded for Projections Of A Stained Mind compilation. The song is played in D and the solo for the most part sounds the same as on album, but there are certain differences, which I would really like to see tabbed.

Any suggestions ?
_________________
"Welcome to the sane asylum, you'll never leave if you keep trying" - Blind Illusion.

Top
 Profile  
AlcoholicMayhem
Metal newbie

Joined: Thu Jan 05, 2012 3:47 pm
Posts: 58
Location: Greece
PostPosted: Wed May 09, 2012 12:07 pm 
 

Hey all, can anyone help me with tabs of Cruel Force from Germany? Any song you like, thanks in advance

Top
 Profile  
Necroticism174
Kite String Popper

Joined: Mon Mar 30, 2009 6:46 pm
Posts: 4861
Location: Canada
PostPosted: Fri May 25, 2012 5:09 pm 
 

Anybody got a tab for Aborted's Nailed Through Her Cunt.
_________________
lord_ghengis about Vomitory splitting up wrote:
They were a band who understood music needed more explosions.

http://www.last.fm/user/TheEndTimeRiff
http://halberddoom.bandcamp.com/releases

Top
 Profile  
rabidmadman
Metalhead

Joined: Mon Feb 28, 2005 6:29 pm
Posts: 526
Location: United States
PostPosted: Sat Jun 02, 2012 10:18 pm 
 

Hey, I need help figuring out some riffs in these two songs:

1) Tank - Echos of a Distant Battle (What exactly is going on in that intro riff?) I tabbed it out like this, but I'm not sure of those weird sounding chords at all: http://www.youtube.com/watch?v=fkZFM35hwUo The rest of the song is very easy to figure out by ear, but I'm dying to get the intro to sound exactly like the record. Here is what I have, I can send my guitar pro tab to anyone that's interested, just send me a pm so you could modify what i have.

Code:
                          W                             
E ||---------------------------------------------------|
B ||---------------------------------------------------|
G ||o------------3-----3--5-----------3-----0----------|
D ||o------------3-----3--5-----------3-----0----------|
A ||-5-----5-------------------------------------------|
E ||-3-----3-------------------------------------------|

           W                 
----------------------------|
--6--------8--------8-------|
--7-----0--10b------10.-----|
----------------------------|
----------------------------|
----------------------------|

                       W                             
----------------------------------------------------|
----------------------------------------------------|
--------------3-----3--5-----------3-----0----------|
--------------3-----3--5-----------3-----0----------|
--5-----5-------------------------------------------|
--3-----3-------------------------------------------|

  W                           
---------------------------|||
---------------------------|||
--3-----------------------o|||
--3--------5--------------o|||
-----------5-----1--0------|||
-----------3-----------1---|||



2) Loudness - No way out. I really have absolutely NO idea how to play the intro or the main riff. I'd be very happy for someone to help me tab out the intro and main riff. I've watched a video of the cover but it's really tough to follow.


I'd greatly appreciate input on these two songs, especially the loudness one because I have no idea how to play it. http://www.youtube.com/watch?v=yEfaZZEFp3o

Top
 Profile  
gomorro
Too Slow to Owl

Joined: Wed Apr 02, 2008 3:54 pm
Posts: 906
Location: Peru
PostPosted: Tue Jul 31, 2012 3:32 pm 
 

Is there any tablature player that can export the sound to mp3??? I have the Go PlayAlong but it cant's

Top
 Profile  
Misfit74
Metalhead

Joined: Fri Aug 05, 2011 1:23 am
Posts: 1537
Location: United States
PostPosted: Tue Jul 31, 2012 3:44 pm 
 

gomorro wrote:
Is there any tablature player that can export the sound to mp3??? I have the Go PlayAlong but it cant's


I use a combo Guitar Pro 6 and export to .wav then convert using another program, such as Nero.

I'd be interested to hear of a program that does what you're saying. There probably are some out there but I don't know of them.
_________________
Last.fm
My Music on RYM

Top
 Profile  
gomorro
Too Slow to Owl

Joined: Wed Apr 02, 2008 3:54 pm
Posts: 906
Location: Peru
PostPosted: Wed Aug 01, 2012 11:37 am 
 

Misfit74 wrote:
gomorro wrote:
Is there any tablature player that can export the sound to mp3??? I have the Go PlayAlong but it cant's


I use a combo Guitar Pro 6 and export to .wav then convert using another program, such as Nero.

I'd be interested to hear of a program that does what you're saying. There probably are some out there but I don't know of them.


Thanks man... Ill give it a try

Top
 Profile  
Black Champion
Mallcore Kid

Joined: Sun Jan 26, 2014 6:22 am
Posts: 5
Location: Turkey
PostPosted: Sat Feb 22, 2014 2:45 pm 
 

Hello metalheads, we will join to a competition and play this song " www.youtube.com/watch?v=uKsh8p1oGCg&hl= ... =mv-google " but couldn't find the tabs for the solo between 2:58 - 3:11. If anyone can write the tabs we will be glad and also we need it immediately, we have little time to go. Thanks for the attention.

Top
 Profile  
Display posts from previous:  Sort by  
Reply to topic Go to page Previous  1 ... 4, 5, 6, 7, 8


Who is online

Users browsing this forum: No registered users and 6 guests


You cannot post new topics in this forum
You cannot reply to topics in this forum
You cannot edit your posts in this forum
You cannot delete your posts in this forum

Search for:
Jump to:  

Back to the Encyclopaedia Metallum


Powered by phpBB © 2000, 2002, 2005, 2007 phpBB Group